Patience Chords by Guns n Roses

Home ] Up ] November Rain Chords by GNR ] [ Patience Chords by Guns n Roses ] Used To Love Chords by GNR ] Your Crazy Chords by GNR ]

Free Guitar Tab

Patience Chords by Guns N Roses

Patience
Guns n' Roses
GN'R Lies

Tabbed by: Vassilis Tzerpos and Stephen Iggulden (ending)

Tune half step down - For Acoustic Guitar

Chords used: Av= 577655 G6= xx0000 C9= x32030 F6= 1x3231

C G
|------0---0-----|----------------|----------------|----------------|
|------1---1-1-1-|3p1-1-0h1-1-1p0-|------0---------|1p0-------------|
|----0-------0-0-|0---0-0---0-0---|----0-----0-----|----0-2p0---0h2-|
|2-2---------2-2-|2---2-2---2-2---|--0---------0---|----------0-0h2-|
|3-----------3-3-|3---3-3---3-3---|2-------------2-|----------------|
|----------------|----------------|----------------|----------------|

Av D
|----------------|----------------|2---2---2-2-----|3p2-2-0---2-----|
|----2---------0-|3p2---0h2-2-----|3-3---3-----3-3-|3---3-3---3-----|
|------2---2-----|----2-0h2-2-2-0-|2-------------2-|2---2-2---2-----|
|--------2---2---|----2-------2-0-|0-------------0-|0---0-0---0-----|
|0---------------|----------------|----------------|------------0-2-|
|----------------|----------------|----------------|----------------|
| |
|----------------|----------------|----------------|----------------|
|----------------|----------------|----------------|----------------|
|----------------|----------------|----------------|------------7---|
|----------------|----------------|----------------|----------------|
|----------------|----------------|----------------|----------------|
|----------------|----------------|----------------|----------------|

C G
|------0---0-----|----------------|----------------|----------------|
|------1---1-1-1-|3p1-1-0h1-1-1p0-|------0---------|1p0-------------|
|----0-------0-0-|0---0-0---0-0---|----0-----0-----|----0-2p0---0h2-|
|2-2---------2-2-|2---2-2---2-2---|--0---------0---|----------0-0h2-|
|3-----------3-3-|3---3-3---3-3---|2-------------2-|----------------|
|----------------|----------------|----------------|----------------|
| |
|----------------|----10----------|--7-8-9-10------|----------------|
|8-------------8-|1012--10--8-108-|10^-------10^-8-|------------10--|
|----------------|------**--------|----------------|--------------9-|
|----------------|----------------|----------------|----------------|
|----------------|----------------|----------------|----------------|
|----------------|----------------|----------------|----------------|

Av D
|----------------|----------------|2---2---2-2-----|3p2-2-0---2-----|
|----2---------0-|3p2---0h2-2-----|3-3---3-----3-3-|3---3-3---3-----|
|------2---2-----|----2-0h2-2-2-0-|2-------------2-|2---2-2---2-----|
|--------2---2---|----2-------2-0-|0-------------0-|0---0-0---0-----|
|0---------------|----------------|----------------|------------0-2-|
|----------------|----------------|----------------|----------------|
| |
|------------7s8s|9---------------|--10----8-----7-|----7s5---------|
|10--------------|----------------|----------------|8---------------|
|------------7s8s|9---------------|11----9-----7---|--7--s5---------|
|----------------|----------------|----------------|----------------|
|----------------|----------------|----------------|----------------|
|----------------|----------------|----------------|----------------|

C G6 G C G6 Em G6
|------0---------|----------------|----------------|----------------|
|----1---3p1-----|----------------|------1---------|----------------|
|--0-----------0-|------0---------|----0---0-------|------0---------|
|2-----------2---|----0-----0-----|--2-------2-----|----2-----------|
|3---------------|--2---------2---|3---------------|--2-------------|
|----------------|3-------------3-|------------3-2-|0---------------|

C G6 G G6 D
|----------------|----------------|------2---------|----------------|
|------1---------|--------0-------|3---------------|----------------|
|----0---0-------|------0---0-----|2---------------|----------------|
|--2-------2-----|----0-------0---|0---------------|----------------|
|3-----------3-2-|2-2-------------|----------------|----------------|
|----------------|3---------------|----------------|----------------|

Shed a tear...
|----------------|----------------|----------------|----------------|
|------1---1-1-1-|3p1---0---1-----|----------------|----------------|
|----0-----0-0-0-|0-----------0---|----------------|--------0-----0-|
|--2-------2-2-2-|2---------------|----------------|----0-----0-2-0-|
|3---------3-3-3-|3---3---------3-|2-------2-0-----|----2-0---------|
|----------------|----------------|----------------|3---------------|
| |
|----------------|----------------|----------------|----------------|
|------1---------|3-1---1---------|----------------|----------------|
|----0-----------|----0---0-------|------0---------|------0---------|
|--2-------------|----------2-----|----0-----------|----0---0-----0-|
|3---------------|------------3-0-|2---------0-----|--2-------2-----|
|----------------|----------------|--------------3-|3-----------3---|

|--------5-------|----------------|----------------|----------------|
|------2---------|3p2---0---2-----|----------------|----------------|
|----2-----------|----------------|----------------|--2---2-4-2-----|
|2---------------|----2-----------|0-------------0s|4-----------4---|
|0---------------|----------0-3-4-|----------------|--------------0-|
|----------------|----------------|----------------|----------------|
| |
|------5---------|5-----5---------|------0-2-------|3-2-----0-2-----|
|----5---5-------|5-------5-------|----3-----------|----------------|
|--6-------------|7---------------|----------------|----------------|
|7-----------7---|----------------|0-------------0-|----------------|
|----------------|----------0-3-4-|----------------|----------------|
|----------------|----------------|----------------|----------------|

Was a time...
|----------------|----------------|----------------|----------------|
|------1---1-1-1-|3p1---0---1-----|----------------|----------------|
|----0-----0-0-0-|0-----------0---|----------------|--------0-----0-|
|--2-------2-2-2-|2---------------|----------------|----0-----0-2-0-|
|3---------3-3-3-|3---3---------3-|2-------2-0-----|----2-0---------|
|----------------|----------------|----------------|3---------------|
| |
|----------------|----------------|----------------|----------------|
|------1---------|3-1---1---------|----------------|----------------|
|----0-----------|----0---0-------|------0---------|------0---------|
|--2-------------|----------2-----|----0-----------|----0---0-----0-|
|3---------------|------------3-0-|2---------0-----|--2-------2-----|
|----------------|----------------|--------------3-|3-----------3---|

|--------5-------|----------------|------0-2-------|3-2---0-0-2-----|
|------2---------|3p2---0---2-----|----3-----3-----|------3-3-3---0-|
|----2-----------|----------------|------------2---|--------2-2-2---|
|2---------------|----2-----------|0-------------0-|----------------|
|0---------------|----------0-3-4-|----------------|----------------|
|----------------|----------------|----------------|----------------|
| |
|------5---------|5-----5---------|----2---2-------|----------------|
|----5---5-------|5-------5-------|------3---3-----|3-----3---3-3-0-|
|--6-------------|7---------------|------------2-0-|----------2-2-0-|
|7-----------7---|----------------|0---------------|----------0-0-0-|
|----------------|----------0-3-4-|----------------|----------------|
|----------------|----------------|----------------|----------------|

Chorus
Said woman, take it slow...
C9 G6 G G6 C G6 Em G6
|----------------|--------3-------|----------------|------0---------|
|1-------1-------|3-3-0-0---3---0-|----1-----------|----0---0-------|
|0-------0-------|0-----------0---|0---0-----------|----------0---0-|
|2-------2-------|0---------------|2---2-----------|--2---------2---|
|3-------3-------|2---------------|3---3-----------|----------------|
|----------------|3---------------|------------3-2-|0---------------|

C G6 G /----- Same as tabbed guitar -----\
|------0---------|----------------|2---2---0-2---3-|--2---0---2-----|
|------1---1-1-0-|--------------0-|3---3(3)3-3---3-|3-3-3-3-3-3-3-0-|
|--0---0---0-0-0-|0-----0-------0-|2---2(2)2-2---2-|2-2-2-2-2-2-2-0-|
|2---2-----2-2-0-|0---0-----0---0-|0---0(0)0-0---0-|0-0-0-0-0-0-0-0-|
|3---3-----3-3---|2-----------2---|----------------|----------------|
|----------------|3---------------|----------------|----------------|

C9 G6 G G6 C G6 Em G6
|----------------|--------3-------|----------------|------0---------|
|1-------1-------|3-3-0-0---3---0-|----1-----------|----0---0-------|
|0-------0-------|0-----------0---|0---0-----------|----------0---0-|
|2-------2-------|0---------------|2---2-----------|--2---------2---|
|3-------3-------|2---------------|3---3-----------|----------------|
|----------------|3---------------|------------3-2-|0---------------|
Figure 1 (end Figure 1)
C G6 G D
|------0---------|----------------|2---2---0-2---3-|--2---0---2---22|
|------1---1-1-0-|--------------0-|3---3(3)3-3-3-3-|3-3-3-3-3-3-3-33|
|--0---0---0-0-0-|0-----0-------0-|2---2(2)2-2-2-2-|2-2-2-2-2-2-2-22|
|2---2-----2-2-0-|0---0-----0---0-|0---0(0)0-0-0-0-|0-0-0-0-0-0-0-00|
|3---3-----3-3---|2-----------2---|----------------|----------------|
|----------------|3---------------|----------------|----------------|

|2---------------|----------------|----10----------|----------------|
|3---------------|--------------5s|10--------------|----------------|
|2---------------|--------------6s|11--------------|--------------7s|
|0---------------|--------------7s|12--------------|----------------|
|----------------|----------------|----------------|----------------|
|----------------|----------------|----------------|----------------|
| |
|2---2---0-2---3-|--2---0---2---22|2---2---0-2---3-|--2---0---2---22|
|3---3(3)3-3-3-3-|3-3-3-3-3-3-3-33|3---3(3)3-3-3-3-|3-3-3-3-3-3-3-33|
|2---2(2)2-2-2-2-|2-2-2-2-2-2-2-22|2---2(2)2-2-2-2-|2-2-2-2-2-2-2-22|
|0---0(0)0-0-0-0-|0-0-0-0-0-0-0-00|0---0(0)0-0-0-0-|0-0-0-0-0-0-0-00|
|----------------|----------------|----------------|----------------|
|----------------|----------------|----------------|----------------|

| 1.
|----14--------14|----14--14--14\-|
|----------------|--14--14--14----|
|14--------14----|----------------|
|----------------|----------------|
|----------------|----------------|
|----------------|----------------|
| | Go back to play Verse 2.
|2---2---0-2---3-|--2---0---2-----|
|3---3(3)3-3-3-3-|3-3-3-3-3-3-----|
|2---2(2)2-2-2-2-|2-2-2-2-2-2-----|
|0---0(0)0-0-0-0-|0-0-0-0-0-0-----|
|----------------|------------0-2-|
|----------------|----------------|

| 2.
|----14--------14|------------8p7-|8-------8s108---|------------8p7-|
|----------------|----------------|--------------12|--------8-------|
|14--------14----|----------------|--------------**|----------------|
|----------------|----------------|----------------|----------------|
|----------------|----------------|----------------|----------------|
|----------------|----------------|----------------|----------------|
| |
|2---2---0-2---3-|--2-----------00|----------------|----------------|
|3---3(3)3-3-3-3-|3-3-3-0-0-3-3-11|----------------|----------------|
|2---2(2)2-2-2-2-|2-2-2-0-0-2-2-00|With chorus backing chords-------|
|0---0(0)0-0-0-0-|0-0-0-0-0-0-0-22|----------------|----------------|
|----------------|--------------33|----------------|----------------|
|----------------|----------------|----------------|----------------|

|8-------8s10--12|------------8p7-|8-------8s108---|--------------12|
|------------12**|----------------|--------------12|--108---8---8-**|
|----------------|----------------|--------------**|----------------|
|----------------|----------------|----------------|----------------|
|----------------|----------------|----------------|----------------|
|----------------|----------------|----------------|----------------|
| |
|----------------|----------------|----------------|----------------|
|----------------|----------------|----------------|----------------|
|----------------|----------------|----------------|----------------|
|----------------|----------------|----------------|----------------|
|----------------|----------------|----------------|----------------|
|----------------|----------------|----------------|----------------|

|--1010--------14|-12-10h12-10----|----------------|----------------|
|--------------**|----------------|----5-8---------|----------------|
|----------------|----------------|7^------7^r-5---|----4-7---------|
|----------------|----------------|----------------|7^------7^r-5---|
|----------------|----------------|----------------|----------------|
|----------------|----------------|----------------|----------------|
| |
|----------------|----------------|----------------|----------------|
|----------------|----------------|----------------|----------------|
|-With-Figure-1--|----------------|-With-chorus-backing-chords------|
|----------------|----------------|----------------|----------------|
|----------------|----------------|----------------|----------------|
|----------------|----------------|----------------|----------------|

|----------------|----------------|----------------|----------------|
|----5-8---------|--8-10^8----8-10|10^-r-8-10--8-10^--8-10--8-108-12|
|7^------7^r-5-7s|9-------9-------|----------9-----|------9-------**|
|----------------|----------------|----------------|----------------|
|----------------|----------------|----------------|----------------|
|----------------|----------------|----------------|----------------|
| |
|----------------|----------------|----------------|----------------|
|----------------|----------------|----------------|----------------|
|----------------|----------------|----------------|----------------|
|----------------|----------------|----------------|----------------|
|----------------|----------------|----------------|----------------|
|----------------|----------------|----------------|----------------|

|----------------|----------------|----------------|----------------|
|--10-10---------|----------------|5---3-------4p2-|----2---------7^|
|----------------|----------------|**--------------|3h4---0---------|
|----------------|----------------|----------------|----------------|
|----------------|----------------|----------------|----------------|
|----------------|----------------|----------------|----------------|
| |
|----------------|----------------|----------------|----------------|
|----------------|----------------|----------------|----------------|
|--With-Figure-1-(3-times)--------|----------------|----------------|
|----------------|----------------|----------------|----------------|
|----------------|----------------|----------------|----------------|
|----------------|----------------|----------------|----------------|

|----------------|----------------|----------------|----------------|
|----7-----------|-------***----7^|--7-----5-7---3-|----------3-----|
|----------------|4p2-----5-------|----------------|--2---0---2-----|
|----------------|----3h4-0-------|----------------|------0---0-----|
|----------------|----------------|----------------|----------------|
|----------------|----------------|----------------|----------------|
| |
|----------------|----------------|2---2---0-2---3-|3-2---0---------|
|----------------|----------------|3---3(3)3-3-3-3-|3-3---3---3-----|
|----------------|----------------|2---2(2)2-2-2-2-|2-2---2---2-----|
|----------------|----------------|0---0(0)0-0-0-0-|0-0---0---0-----|
|----------------|----------------|----------------|----------------|
|----------------|----------------|----------------|----------------|

/ For the last part of the song use the following figures: (Chords)
|
| |-2--2---2---2-2-|-------3-33-3333|
| |-3--3---3---3-30|3-333-33-33-3333|
| |-2--2---2---2-20|0-000-00-00-0000| Figure 2
| |-0--0---0---0-00|0-000-00-00-0000|
| |-0-------------0|2---2-22-22-2222|
| |----2-0-2---2-20|3---3-33-33-3333|
|
| F6 G D Figure 3
|
\ Play figure 2, 10 times, then on the second "I need you" play F6 G D

Ending:

After this part:
|-2--2-----2--2-2----3-----3-3-3--3-3--3-3-3-3-|
|-3--3-----3--3-3--0-3-----3-3-3--3-3--3-3-3-3-|
|-2--2-----2--2-2--0-0-----0-0-0--0-0--0-0-0-0-|
|-0--0-----0----0--0-0-----0-0-0--0-0--0-0-0-0-|
|-0----------------0-2-----2-2-2--2-2--2-2-2-2-|
|----2--0--2--2-2--0-3-----3-3-3--3-3--3-3-3-3-|

Comes this:
|-~10--------~14----14-14-14\12-12-12---10-10------8-8--7-7---7\5---5-3--3-3-3-3-2-|
|-~10--------~15------------------------------10---------------------------------3-|
|-~11--------~14----14-14-14\12-12-12---11-11------9-9-7-7----7\5---5-4--4-2-4-4-2-|
|---------------------------------------------10---------------------------------0-|
|----------------------------------------------------------------------------------|
|----------------------------------------------------------------------------------|
.....lit - tle pa - tience, mm yeah,__

|------------------------------------------------------------------------|
|------------10---------------------10-----------------------10----------|
|--12------12--12-11-9------------12--12--11----------9-11-12--12-11-12~-|
|----------------------12-----------------------12-----------------------|
|------------------------------------------------------------------------|
|------------------------------------------------------------------------|
yeah.__ Need a lit-tle pa - tience, yeah,___

|--------------------------------------------------------------------|
|---------------------------------------------10---------------------|
|-12-11-11\9-9-9\7-7\4-4----------------10-11----12-10-11-12-(12)----|
|--------------------------------------------------------------------|
|--------------------------------------------------------------------|
|--------------------------------------------------------------------|
just a lit-tle pa-tience, yeah,________________

|------------10-(10)----------------------------------------------------|
|-10-8-10/12---------------------------------------------------8/10-8\7-|
|-----------------------------------------------------------------------|
|-----------------------------------------------------------------------|
|-----------------------------------------------------------------------|
|-----------------------------------------------------------------------|
some more pa-tience, yeah.___
I been walk - in' the streets_ at night

|----------------------------------------------------------------|
|-8----7---------------------------3---3-------------------------|
|--------9-7--------7---7\-----------4----5-4-2----4p2-----------|
|---------------------9--------------------------------3h4--0----|
|----------------------------------------------------------------|
|----------------------------------------------------------------|
need some pa - tience
just try - in' to get__ it right. hard to see

|----------------------------------------------------------------|
|----------------------------------------------------------------|
|----------------2-----2-----------------------------------------|
|------------------2-4------4----2--0----------------------------|
|----------------------------------------------------------------|
|----------------------------------------------------------------|
yeah_________________________________
with so man - y a - round,_ you know I don't like being stuck in

|--------------------------------5--------5-----5-------5------5-|
|------------------------3----------3--------3------3--------3---|
|----------------------------------------------------------------|
|----------------------------------------------------------------|
|----------------------------------------------------------------|
|----------------------------------------------------------------|
could use_some pa - tience, yeah__________
the crowd an the streets don't change but baby the name

|---5-----5--5-----5--5-----5--5-----5--5-----5--5-------3---3\2-----|
|-3----3--------3--------3--------3--------3--------3-3----------3---|
|------------------------------------------------------------------2-|
|--------------------------------------------------------------------|
|--------------------------------------------------------------------|
|--------------------------------------------------------------------|
got - ta have some pa - tience,
I ain't got time for the game 'cause I need_____ you,

|------------------------------------------------------------------------|
|-----------------------------5--5---3------------------3p1----3p1---3p1-|
|----------------------------------------------------2------2------2-----|
|------------------------------------------------------------------------|
|------------------------------------------------------------------------|
|------------------------------------------------------------------------|
yeah,______________________ all it takes is pa - tience,
yeah,__ yeah,__ but I need__ you oo, I need you

|------------------0-0-0---------------------------------------|
|---3p1-----3-3-3---------3-3-3-3-3-3-3-3-3----3-5p3--3----5/7-|
|-2-----------------------0-0-0-0-0-0-0-0-0-/4-4-4---4---------|
|-------------------------0-0-0-0-0-0-0-0-0--------------------|
|--------------------------------------------------------------|
|--------------------------------------------------------------|
just a lit-tle pa - tience is all_ you need.
woh I need you oo, this time___________

|-------------------------3p2-------------~2--|
|------------------(7)--------3-----------~3--|
|-------------------------------2---------~3--|
|---------------------------------5p4-0---~0--|
|---------------------------------------------|
|---------------------------------------------|
___________________ Ah.


Ogregod's Tabalture Page

Slash Guitars

Free Guns N Roses Guitar Tab Videos
Click Here

November Rain Chords by GNR ] [ Patience Chords by Guns n Roses ] Used To Love Chords by GNR ] Your Crazy Chords by GNR ]

Guns N Roses CDs ] GNR DVDs ] GNR Sheet Music ] GNR T Shirts and GNR Posters ] Guns N Roses Free Acoustic Chords ]

 
Fender Presents Getting Started on Acoustic Guitar - DVD - sheet music at www.sheetmusicplus.com
Fender Presents Getting S...
Look inside this title
The Beatles: Best of the Beatles for Acoustic Guitar - sheet music at www.sheetmusicplus.com
The Beatles: Best of the ...
Acoustic Guitar

Home ] Acoustic Tabs ] Acoustic Legends ] Acoustic Picture Gallery ] Acoustic Brands ] Acoustic Site Map ] Acoustic Guitars For Sale ] Other Instruments ]

Have A Guitar But No Mic... Click Here For Microphones

Guaranteed Lowest Prices On All The Instruments

Acoustic Guitar Site Recommends These Designer Sun Glasses For Jamming or these  Sunglasses

Check out the Guitar Pictures of your favorite Guitar Brands