Nutshell Tab

Home ] Up ] Frogs Tab ] [ Nutshell Tab ] We Die Young Lyrics ] Alice In Chains CDs ]

Free Guitar Tab

Nutshell Tab - Alice In Chains

Greatest Hits (2001)

Alice In Chains - Nutshelll Guitar Tab
Band:Alice in Chains
Song:Nutshell (acoustic-unplugged)

CHORDS USED:
 
         Em7                 D               Cadd9              
e :-------------3---|--------2--------|-----------------|
B :------------3----|------------3----|----------3------|
G :-----------------|----2------------|-----------------|
D :-----2-----------|-----------------|------2----------|
A :---2-------------|-----------------|----------3------|
E :-----------------|-----------------|-----------------|


Intro:Em7:D:Cadd9 played 5x


Em7       D            Cadd9

We chase misprinted lies 
We face the path of time 
And yet I fight 
And yet I fight 
This battle all alone 
No one to cry to 
No place to call home 

Em7       D             Cadd9
Oooh...Oooh... 
Oooh...Oooh... 




Em7       D          Cadd9
My gift of self is raped 
My privacy is raked 
And yet I find 
And yet I find 
Repeating in my head 
If I can't be my own 
I'd feel better dead 
Oooh...Oooh... 
Oooh...Oooh...



PLAY 4x

|--12-------------------------------------------|
|-----12----------------------------------------|
|--------12--11b12r11--9------------------------|
|-------------------------9(gradual bend)10^^^--|
|-----------------------------------------------|
|-----------------------------------------------|


|--10-------------------------------------------|
|-----8-----------------------------------------|
|--------7---7b8r7------------------------------|
|---------------------10--9^^^------------------|
|-----------------------------------------------|
|-----------------------------------------------|

OUTRO SOLO
                                                        
|-----------------------------------------------------------------------|
|-----------------------------------12----------------------------------|
|----------------------------9--11--12----------------------------------|
|------9b10r9------------------------12---------------------------------|
|-------------10--9b10r9---------------------------------.--------------|
|-------------------------10-------------0--0--10h12--0--15--0--12^^^^--|


|-----------------------------------------------------------------------|
|-----------------------------------12-----12-----12-(<- whammy vib)----|
|----------------------------9--11--12-----12-----11--------------------|
|-----9b10r9------------------------12--/9-10--9--10--------------------|
|-------------10--9b10r9---------------------------------.--------------|
|-0-0---------------------10--------------------------0--15--0--10h12^^-|


|------.-----.-----.----.----------0-0-0-0-0-0-0-0-0-0-0-0-0-0-0-0------|
|------12----10----8----7-------5--5-5-5-5-5-5-5-5-5-5-5-5-5-5-5-5/-----|
|-----------------------------5----5-5-5-5-5-5-5-5-5--------------------|
|--/10----/9----/9---/7----/5-------------------------------------------|
|-----------------------------------------------------------------------|
|-----------------------------------------------------------------------|


|-----------------------------------------------------------------------|
|------------0h1h3p1p0h1-----------------12h13h15p13p12-----------------|
|--------0h2--------------------11h12h14----------------14p12p11--------|
|--0h2h4---------------------------------------------------------14^^^--|
|-----------------------------------------------------------------------|
|-----------------------------------------------------------------------|
 
Fender Presents Getting Started on Acoustic Guitar - DVD - sheet music at www.sheetmusicplus.com
Fender Presents Getting S...
Look inside this title
The Beatles: Best of the Beatles for Acoustic Guitar - sheet music at www.sheetmusicplus.com
The Beatles: Best of the ...
Acoustic Guitar

Home ] Acoustic Tabs ] Acoustic Legends ] Acoustic Picture Gallery ] Acoustic Brands ] Acoustic Site Map ] Acoustic Guitars For Sale ] Other Instruments ]

Have A Guitar But No Mic... Click Here For Microphones

Guaranteed Lowest Prices On All The Instruments

Acoustic Guitar Site Recommends These Designer Sun Glasses For Jamming or these  Sunglasses

Check out the Guitar Pictures of your favorite Guitar Brands