Iris Guitar Tablature

Home ] Up ] [ Iris Guitar Tablature ] Slide Acoustic Tab ] Broadway Lyrics ] Goo Goo Dolls CDs ]

Free Guitar Tab

Goo Goo Dolls Acoustic Guitar Tab

Goo Goo Dolls
Gutterflower (2002)

 

Free Goo Goo Dolls Guitar Tab Videos
Click Here

iris (acoustic version) by GOO GOO DOLLS
arranged by patrick naranjo
0205022041
0217020005
0218021512

- this tab is the acoustic version. practically the same way how 
you play the original, only with the pluckings.
- this is really easy to play, only if you get the rhythm, 
especially the chords of Bm6-7 and G-GM7-G. and take note of the 
instrumental part.
- if you try to listen to the song itself, they have two guitars.
in this tab you can go solo without the lead (that's how i make tabs...
kinda selfish ey!).
- not good to be played by an electric guitar


Major chords in the strumming part:

Note: strings 1 and 6 are both dropped down from E to D (two half 
steps lower)

Bm7 Bm6 Bm6-7 G GM7 G-GM7-G G/F#
D-|---0---|---0---|---0---0---|---0---|---0---|---0---0---|---0---|
B-|---3---|---2---|---2/3-3---|---3---|---3---|---3---3---|---3---|
G-|---2---|---2---|---2---2---|---0---|---0---|---0---0---|---0---|
D-|---0---|---0---|---0-------|---0---|---4---|---0-4-0---|---0---|
A-|---2---|---2---|---2-------|---X---|---X---|---X-------|---X---|
D-|---0---|---0---|---0-------|---5---|---5---|---5-------|---4---|
h
Asus
D-|---0---|
B-|---3---|
G-|---2---|
D-|---2---|
A-|---0---|
D-|-------|

- tip: to make the strings "dead" in the chords G, GM7, G-GM7-G and
G/F#, use your RING finger in string-6 (lowest D) and your index finger in
string-2 (B). then for the dead string-5 (A), slightly touch the string 
with your ring finger. this should make a mute sound for that string.
- all the chords WITHOUT a tab written below it, that means you
strum it.

Note: these chords are mainly used in the strumming parts of the song:
intro, chorus and instrumental.


Intro: Bm7, Bm6, Bm6-7, G, GM7, G-GM7-G (2x)

I.
D D/E G 
|-------------|-------------|-------------|-------------|
|-------3---3-|-------3---3-|-------3---3-|-------3---3-|
|---------2---|---------2---|---------0---|---------0---|
|-----0-------|-----0-------|-----0-------|-----0-------|
|-------------|-------------|-------------|-------------|
|-0-----------|-2-----------|-5-----------|-5-----------|

Bm7 Asus G
|-------------|-------------|-------------|-------------|
|-------3---3-|-------3---3-|-------3---3-|-------3---3-|
|---------2---|---------2---|---------0---|---------0---|
|-----0-------|-----2-------|-----0-------|-----0-------|
|-2-----------|-0-----------|-------------|-------------|
|-------------|-------------|-5-----------|-5-----------|

- repeat series 2x


II. same as I, but replace last 2 measures (G being plucked) by 2 measures
of G being strummed

Chorus: Bm7, Asus, G (4x)

Bridge before III: Bm7, Bm6, Bm6-7, G, GM7, G-GM7-G
Bm7, Bm6, Bm6-7, G, GM7

III. same as II

Repeat Chorus

Instrumental:

- Bm7, Bm6, Bm6-7, G, GM7, G-GM7-G
Bm7, Bm6, Bm6-7, then follow tab below

Bm7 /D /E /F#-/D
|-0-------------------------|
|-3-------------------------| 
|-2-------------------------|
|-0-------------------------|
|-2---2-5---5-----7-----9-5-|
|-0---0-0---0-----0-----0-0-|

- G, G/F#, G, Bm7
G, G/F#, Bm7, then follow tab below

Bm7 Asus /G /F# /E /D-Bm7 Bm7/C#
|-0-----0-----------------------|-------------|-------------|
|-3-----3-----------------------|-------3-----|-------3-----|
|-2-----2-----------------------|---------2---|---------2---|
|-0-----2-----------------------|-----0-----0-|-----0-----0-|
|-2---2-0-----10----9----7----5/|/2-----------|-4-----------|
|-0---0-------0-----0----0----0-|-0-----------|-------------|

D Bm7 Asus G (hold)
|-------------|-------------|-------------|-------------|------0--|
|-------3-----|-------3-----|-------3-----|-------3-----|-----3---|
|---------2---|---------2---|---------2---|---------2---|----0----|
|-----0-----0-|-----0-----0-|-----0-----0-|-----2-----2-|---0-----|
|-------------|-------------|-2-----------|-0-----------|--X------|
|-0-----------|-0-----------|-------------|-------------|-5-------|


Note: the instrumental part of the original version is longer and slightly
different than of this version.

Repeat Chorus

Ending.

Bm7 Bm7/C# D
|-------------|-------------|-------------|-------------|
|-------3-----|-------3-----|-------3-----|-------3-----|
|---------2---|---------2---|---------2---|---------2---|
|-----0-----0-|-----0-----0-|-----0-----0-|-----0-----0-|
|-2-----------|-4-----------|-------------|-------------|
|-------------|-------------|-0-----------|-0-----------|

Bm7 A G
|-------------|-------------|-------------|-------------|
|-------3-----|-------3-----|-------3-----|-------3-----|
|---------2---|---------2---|---------0---|---------0---|
|-----0-----0-|-----2-----2-|-----0-----0-|-----0-----0-|
|-2-----------|-0-----------|-------------|-------------|
|-------------|-------------|-5-----------|-5-----------|

Bm7 Bm7/C# D
|-------------|-------------|-------------|-------------|
|-------3-----|-------3-----|-------3-----|-------3-----|
|---------2---|---------2---|---------2---|---------2---|
|-----0-----0-|-----0-----0-|-----0-----0-|-----0-----0-|
|-2-----------|-4-----------|-------------|-------------|
|-------------|-------------|-0-----------|-0-----------|

Bm7 A G (hold)
|-------------|-------------|------0--|
|-------3-----|-------3-----|-----3---|
|---------2---|---------2---|----0----|
|-----0-----0-|-----2-----2-|---0-----|
|-2-----------|-0-----------|--X------|
|-------------|-------------|-5-------|

 

 

Fender Presents Getting Started on Acoustic Guitar - DVD - sheet music at www.sheetmusicplus.com
Fender Presents Getting S...
Look inside this title
The Beatles: Best of the Beatles for Acoustic Guitar - sheet music at www.sheetmusicplus.com
The Beatles: Best of the ...
Acoustic Guitar

Home ] Acoustic Tabs ] Acoustic Legends ] Acoustic Picture Gallery ] Acoustic Brands ] Acoustic Site Map ] Acoustic Guitars For Sale ] Other Instruments ]

Have A Guitar But No Mic... Click Here For Microphones

Guaranteed Lowest Prices On All The Instruments

Acoustic Guitar Site Recommends These Designer Sun Glasses For Jamming or these  Sunglasses

Check out the Guitar Pictures of your favorite Guitar Brands