Frogs Tab

Home ] Up ] [ Frogs Tab ] Nutshell Tab ] We Die Young Lyrics ] Alice In Chains CDs ]

Free Guitar Tab

Frogs Tab - Alice In Chains

Greatest Hits (2001)

 

 ALICE IN CHAINS
FROGS (ACOUSTIC)

TABBED BY:   BRANDON MCAULEY


THIS IS THE ACOUSTIC VERSION,
I DONT THINK THERE'S A DIFFERENCE
BUT I NOTICED SOME PARTS THAT WEREN'T RIGHT.


TUNE ALL STINGS DOWN 1/2 STEP
Eb,Ab,Db,Gb,Bb,Eb

KEY:
(b)= BEND
  *= HARMONIC 
  v= VIBRATO



OK HERES GUITAR 1 (OLSON)WHICH REMAINS CONSTANT 


Eb--------------------------------------------------------------------
Bb--------------------------------------------------------------------
Gb-----0-----0-----0----0---0---0--PLAY AS INTRO THEN REPEAT AS RHYTHM
Db--------------------------------------------------------------------
Ab---4-----4-----4----4-----------------------------------------------
Eb-0-----0-----0----0-----4---3---------------------------------------


THIS IS GUITAR TWO (CANTRELL) WHICH STARTS ON THE FIFTH REVOLUTION OF 
PART ONE, THIS IS ALSO WHERE STALEY STARTS SINGING. WHEN YOU DO THE 
BEND ON G-6, TRY TO MATCH STALEY'S VOICE.


Eb--------------------------------------------------------------------
Bb----------5--------7*(let ring)-------------------------------------
Gb---6(b)-----6(b)------------------REPEAT UNTIL LYRICS---------------
Db-----------------5--------0---0-------------------------------------
Ab--------------------------------------------------------------------
Eb-0------0---------------4---3---------------------------------------


HERE ARE THE LYRICS FOR GUITAR 1 (OLSON)


Eb--------------------------------------------------------------------
Bb---------------------3--3--3--3--3--3<<<
 EVERYTHING FROM HERE UNTIL I SAY SO IS HARMONICS 
Eb---12---12---12------------7---5-------------------------------------
Bb---12-----------12---------7---5-----7---7---7---7---7---------------
Gb---12--------------12------7---0-------5---5---5---5---5-------------
Db----------------------12---------------------------------------------
Ab---------------------------------------------------------------------
Eb-0-------------------------------------------------------------------


Eb--------------------------------------5------------------------------
Bb---7---7---ON AND ON THEN THE---7---7---AFTER SOLO ----7---7---7-----
Gb-----5---5-LAST TIME GOES LIKE----5-----RHYTHM-------5---5---5-------
Db-----------------THIS-------------------JUST-------------------------
Ab----------------------------------------FLIPS------------------------
Eb---------------------------------------------------------------------


SOLO IN BETWEEN HARMONICS SOLO (NO HARMONICS)


Eb---------------------------------------------------------------------
Bb-------------------------------------------------------------YOU GET-
Gb----3(b)----3-------------------3(b)-----3-------------------THE IDEA
Db--------4-5-------4------------------4-5-------4---------------------
Ab--------------4-5--------4(b)--------------4-5-------4(b)------------
Eb-0------------------3-5-------0------------------3-5------0----------
 
Fender Presents Getting Started on Acoustic Guitar - DVD - sheet music at www.sheetmusicplus.com
Fender Presents Getting S...
Look inside this title
The Beatles: Best of the Beatles for Acoustic Guitar - sheet music at www.sheetmusicplus.com
The Beatles: Best of the ...
Acoustic Guitar

Home ] Acoustic Tabs ] Acoustic Legends ] Acoustic Picture Gallery ] Acoustic Brands ] Acoustic Site Map ] Acoustic Guitars For Sale ] Other Instruments ]

Have A Guitar But No Mic... Click Here For Microphones

Guaranteed Lowest Prices On All The Instruments

Acoustic Guitar Site Recommends These Designer Sun Glasses For Jamming or these  Sunglasses

Check out the Guitar Pictures of your favorite Guitar Brands