Everlong Tablature

Home ] Up ] [ Everlong Tablature ] Times Like These Free Tab ] Next Year Lyrics ] CDs By Foo Fighters ] Foo Fighters Posters ]

Free Guitar Tab

Free Acostic Tablature For Foo Fighters

 

Everlong (acoustic) by Foo Fighters
In Drop D


The original version of this song was released in 1997 on Color and the Shape. 
As far as I know, the only place to find the acoustic version is on a peer-to-peer
network (Napster clone).

Verse (0:00:00)
e|----------------------------------------------------------------
B|----------------------------------------------------------------
G|----------------------------------------------------------------
D|-----11---11-11---11---11---11-11-11------11---11-11---
A|-----9----9--9----9----9----9--9--9-------9----9--9----9---
D|-0-0----0-------0----0----0-----------9-9----9-------9----9


e|----------------------------------------------------------
B|----------------------------------------------------------
G|----------------------------------------------------------
D|-----7-7-----7-7-------11-11----11-11-----11-11-----11-11-
A|-----5-5-----5-5-------9--9-----9--9------9--9------9--9--
D|-5-5-----5-5-------9-9------9-9-------9-9-------9-9-------



Bridge (00:01:20)
e|-----------------------------------------|
B|-----------------------------------------|
G|-----------------------------------------|
D|------------------------------7----------|
A|-4-4-4-5-5-5-7-7-7-9-9-9-10-9-7~---------|
D|-0-0-0-0-0-0-0-0-0-0-0-0-0--0-7----------| 
repeat


e|-------------------|
B|-------------------|
G|-------------------|
D|-------------------|
A|-4-4-4-5-5-5-7-7-7-|
D|-0-0-0-0-0-0-0-0-0-|



Chorus (00:01:35)
e|-------------------------------------------------------
B|--------------------------7-7-7--7-7-7--7-7-7-7-7-7-7--
G|-4--4-4-4-4-4-5-5-5-5-5-5-7-7-7--7-7-7--7-7-7-7-7-7-7--
D|-4--4-4-4-4-4-5-5-5-5-5-5-5-5-5--5-5-5--5-5-5-5-5-5-5--
A|-2--2-2-2-2-2-5-5-5-5-5-5-0-0-0--0-0-0--0-0-0-0-0-0-0--
D|-------------------------------------------------------
repeat

e|-------------------------------------------------------
B|--------------------------7-7-7-7-7-7------------------
G|-4--4-4-4-4-4-5-5-5-5-5-5-7-7-7-7-7-7--7-7-7-7-7-7-----
D|-4--4-4-4-4-4-5-5-5-5-5-5-5-5-5-5-5-5--7-7-7-7-7-7-----
A|-2--2-2-2-2-2-5-5-5-5-5-5-0-0-0-0-0-0--7-7-7-7-7-7-----
D|-------------------------------------------------------


e|----------------------------
B|----------------------------
G|-5-5-5-5-5-5-5-5-5-5-5-5-5--
D|-5-5-5-5-5-5-5-5-5-5-5-5-5--
A|-5-5-5-5-5-5-5-5-5-5-5-5-5--
D|----------------------------


Sequence: Intro (Verse x2)
1st Verse (Verse x2)
Verse x1 
2nd Verse (Verse x2)
Bridge
Chorus
Verse x1
3rd Verse (Verse x2)
Bridge
Chorus
Verse x1
Bridge x2 (omitting the second block of bridge tab; first block x4)Chorus
Outro Chord x1:
D A D G B e
0 9 11 - - -

Free Foo Fighter Guitar Tab Videos
Click Here

Fender Presents Getting Started on Acoustic Guitar - DVD - sheet music at www.sheetmusicplus.com
Fender Presents Getting S...
Look inside this title
The Beatles: Best of the Beatles for Acoustic Guitar - sheet music at www.sheetmusicplus.com
The Beatles: Best of the ...
Acoustic Guitar

Home ] Acoustic Tabs ] Acoustic Legends ] Acoustic Picture Gallery ] Acoustic Brands ] Acoustic Site Map ] Acoustic Guitars For Sale ] Other Instruments ]

Have A Guitar But No Mic... Click Here For Microphones

Guaranteed Lowest Prices On All The Instruments

Acoustic Guitar Site Recommends These Designer Sun Glasses For Jamming or these  Sunglasses

Check out the Guitar Pictures of your favorite Guitar Brands