About A Girl Guitar Tab

Home ] Up ] [ About A Girl Guitar Tab ] All Apologies Guitar Tab ] Come As You Are Guitar Tab ] Smells Like Teen Spirit Guitar Tab ]

Free Guitar Tab

About A Girl Guitar Tab

Free Nirvana Guitar Tab Videos
Click Here

Nirvana
"About a Girl"
Bleach (SP34a)
Copyright 1989 Sub Pop
Transcribed by Chris Mosher 
-------------------------------------------------

About A Girl Guitar Tab

part A (verse):
beat| 1 + 2 + 3 + 4 + | 1 + 2 + 3 + 4 + |
crd| E5 G | E5 G |
E|-----------0-----3--3--3-|-----0--0--0-----3--3--3-|
B|-----------0-----0--0--0-|-----0--0--0-----0--0--0-|
G|-----------x--0--0--0--0-|--x--x--x--x--0--0--0--0-|
D|--2--h--2--2--0--0--0--0-|--2--2--2--2--0--0--0--0-|
A|--2--h--2--h--x-----x----|--2--h--2--h--x-----x----|
E|--0--h--0--h--3--h--3----|--0--h--0--h--3--h--3----|

beat| 1 + 2 + 3 + 4 + | 1 + 2 + 3 + 4 + |
crd| E5 G | E5 G |
E|-----0--0--0-----3--3--3-|-----0--0--0-----3--3--3-|
B|-----0--0--0-----0--0--0-|-----0--0--0-----0--0--0-|
G|--x--x--x--x--0--0--0--0-|--x--x--x--x--0--0--0--0-|
D|--2--2--2--2--0--0--0--0-|--2--2--2--2--0--0--0--0-|
A|--2--h--2--h--x-----x----|--2--h--2--h--x-----x----|
E|--0--h--0--h--3--h--3----|--0--h--0--h--3--h--3----|


part B (chorus):
beat| 1 + 2 + 3 + 4 + | 1 + 2 + 3 + 4 + |
crd| C#5 G#5 | F#5 |
E|-------------------------|-------------------------|
B|-------------------------|-------------------------|
G|--6--h--6--6-------------|-------------------------|
D|--6--h--6--6--6--h--6--6-|--4--4-----4--h--4--4--x-|
A|--4--h--4--4--6--h--6--6-|--4--4-----4--h--4--4--x-|
E|--------------4--h--4--4-|--2--2-----2--h--2--2--x-|

beat| 1 + 2 + 3 + 4 + | 1 + 2 + 3 + 4 + |
crd| C#5 G#5 | F#5 |
E|-------------------------|-------------------------|
B|-------------------------|-------------------------|
G|--6--h--6--6-------------|-------------------------|
D|--6--h--6--6--6--h--6--6-|--4--4-----4--h--4--4--x-|
A|--4--h--4--4--6--h--6--6-|--4--4-----4--h--4--4--x-|
E|--------------4--h--4--4-|--2--2-----2--h--2--2--x-|

beat| 1 + 2 + 3 + 4 + | 1 + 2 + 3 + 4 + |
crd| E5 E5' | A5 C5 |
E|-------------------------|-------------------------|
B|-------------------------|-------------------------|
G|-----------x/-9--9--9--x-|-----------5--h--5--5--x-|
D|--2--h--2--x/-9--9--9--x-|--7--7--7--5--h--5--5--x-|
A|--2--h--2--x/-7--7--7--x-|--7--7--7--3--h--3--3--x-|
E|--0--h--0----------------|--5--5--5----------------|



part C (lead):
beat| 1 + 2 + 3 + 4 + | 1 + 2 + 3 + 4 + |
crd| E5 G | E5 G |
E|-------------------------|------------------------------|
B|-------------------------|------------------------------|
G|-------------------------|-----------------12--h-12--h\-|
D|--------------5--7--7--7-|/(9)-9--9--9/(12)-h-12--h--h\-|
A|--------5--7-------------|------------------------------|
E|--0--h-------------------|------------------------------|
(turn up distortion just before lead)


part D (coda):
beat| 1 + 2 + 3 + 4 + | 1 + 2 + 3 + 4 + |
crd| E5 E5' | A5 C5 |
E|-------------------------|-------------------------|
B|-------------------------|-------------------------|
G|-----------x/-9--9--9--x-|-----------5--h--5--5--5-|
D|--2--h--2--x/-9--9--9--x-|--7--7--7--5--h--5--5--5-|
A|--2--h--2--x/-7--7--7--x-|--7--7--7--3--h--3--3--3-|
E|--0--h--0----------------|--5--5--5----------------|

beat| 1 + 2 + 3 + 4 + | 1 + 2 + |
crd| C5 | |
E|-------------------------|-------------|
B|-------------------------|-------------|
G|--5--5--5--5--5--5--5--5-|--5--5--5--x-|
D|--5--5--5--5--5--5--5--5-|--5--5--5--x-|
A|--3--3--3--3--3--3--3--3-|--3--3--3--x-|
E|-------------------------|-------------|
(slows down a bit here)


part E (coda):
beat| 1 + 2 + 3 + 4 + |
crd| E5
E|-------------------------|
B|-------------------------|
G|-------------------------|
D|--2--h--h--h--h--h--h--h-| (hold for about four measures total)
A|--2--h--h--h--h--h--h--h-|
E|--0--h--h--h--h--h--h--h-|



TAB Legend:
h = hold fretted note (or let open note ring), do not pick
m/(n)= pick note at fret m, slide up to fret n (do not pick twice)
n\ = pick note at fret n, slide down (to wherever)
x = pick string, but muffle with finger so note doesn't sound



CRD chart
---------
E A D G B E
E5: 0 2 2 x 0 0
G: 3 x 0 0 0 3
C#5: x 4 6 6 x x
G#5: 4 6 6 x x x
F#5: 2 4 4 x x x
E5': x 7 9 9 x x
A5: 5 7 7 x x x
C5: x 3 5 5 x x



LYR
---
verse 1:
| 1 + 2 + 3 + 4 + | 1 + 2 + 3 + 4 + |
| I need an | ea---sy friend I |
| do with a | hand to lend I |
| do think you | fit this shoe I |
| do what you | have a clue |

verse 2:
| 1 + 2 + 3 + 4 + | 1 + 2 + 3 + 4 + |
| I'm stand-ing | in your light I |
| do hope you | have the time I |
| do pick up | num--ber two I |
| do keep a | date with you |

chorus:
| 1 + 2 + 3 + 4 + | 1 + 2 + 3 + 4 + |
| I'll take a---ad--|-van--tage while |
| You hang me | out to dry But |
| I can't see you | ev'--ry night |
| Free | (I |
| do) | |

coda:
| 1 + 2 + 3 + 4 + | 1 + 2 + 3 + 4 + |
| I'll take a---ad--|-van--tage while |
| You hang me | out to dry But |
| I can't see you | ev'--ry night No |
| I can't see you | ev'--ry nigh------------|

| 1 + 2 + 3 + 4 + | 1 + 2 + |
| ----------(t) | |

| 1 + 2 + 3 + 4 + | 1 + 2 + 3 + 4 + |
| Free | I |
| do | I |
| do | I |
| do | I |
| do | |
 
Fender Presents Getting Started on Acoustic Guitar - DVD - sheet music at www.sheetmusicplus.com
Fender Presents Getting S...
Look inside this title
The Beatles: Best of the Beatles for Acoustic Guitar - sheet music at www.sheetmusicplus.com
The Beatles: Best of the ...
Acoustic Guitar

Home ] Acoustic Tabs ] Acoustic Legends ] Acoustic Picture Gallery ] Acoustic Brands ] Acoustic Site Map ] Acoustic Guitars For Sale ] Other Instruments ]

Have A Guitar But No Mic... Click Here For Microphones

Guaranteed Lowest Prices On All The Instruments

Acoustic Guitar Site Recommends These Designer Sun Glasses For Jamming or these  Sunglasses

Check out the Guitar Pictures of your favorite Guitar Brands